Ю. Антонов - Не рвите цветы


Ю. Антонов - Не рвите цветы

Просмотров: 612

   

Другие тексты исполнителя

Текст песни Юрий Антонов - Не рвите цветы. 1988

И распахнута вся для сказок,
В жемчугах она, в серебре,
В изумрудах она, в алмазах.
Не рвите цветы, не рвите,
Пусть будет нарядней Земля,
А вместо букетов дарите
Васильковые,
Незабудковые
И ромашковые поля

Птиц разбуженных голоса
Завораживают и манят,
Может, прячутся чудеса,
Как табун лошадей в тумане?

Припев

Расколдована тишина
С самым первым лучом рассвета,
Значит, кончилось время сна,
Все цветы ждут слова привета.

Припев

Не рвите цветы, не рвите,
Пусть будет нарядней Земля,
А вместо букетов дарите
Васильковые,
Незабудковые
И ромашковые поля
(далее на полтона выше)

Проигрыш

D A
e--3--4--6--5--6--8--------6--6--------------
H--------------------------------------------

D
e-----------------8--------6-----------------
H--6--8--9--8--9--------------9--8-----------

D7 G
e-----6--11-11-11-13----------11-------------
H--8-----------------------13----------------

F A
e-----10-11-11-11-15-------11-11----13-13----
H--13----------------------------------------
Cm Fm
Не рвите цветы, не рвите,
A Cm
Пусть будет нарядней Земля,
G Fm
А вместо букетов дарите 4
Cm / раза
Васильковые, /
Fm /
Незабудковые /
G Cm A /
И ромашковые поля /

Комментарии (0)






Добавить комментарий



Каптча:
/.jpg

Популярные тексты песен